  0
SECTION
  2
HEADER
  9
$ACADVER
  1
AC1014
  9
$ACADMAINTVER
 70
     9
  9
$DWGCODEPAGE
  3
ANSI_1252
  9
$INSBASE
 10
0.0
 20
0.0
 30
0.0
  9
$EXTMIN
 10
-940.0573686697256
 20
-940.0573686697256
 30
-0.0015258207003583
  9
$EXTMAX
 10
985.095219273464
 20
940.0573774241575
 30
0.0000000349246037
  9
$LIMMIN
 10
0.0
 20
0.0
  9
$LIMMAX
 10
12.0
 20
9.0
  9
$ORTHOMODE
 70
     0
  9
$REGENMODE
 70
     1
  9
$FILLMODE
 70
     1
  9
$QTEXTMODE
 70
     0
  9
$MIRRTEXT
 70
     1
  9
$DRAGMODE
 70
     2
  9
$LTSCALE
 40
1.0
  9
$OSMODE
 70
     0
  9
$ATTMODE
 70
     1
  9
$TEXTSIZE
 40
0.2
  9
$TRACEWID
 40
0.05
  9
$TEXTSTYLE
  7
STANDARD
  9
$CLAYER
  8
ACS_LOCKED
  9
$CELTYPE
  6
BYLAYER
  9
$CECOLOR
 62
   256
  9
$CELTSCALE
 40
1.0
  9
$DELOBJ
 70
     1
  9
$DISPSILH
 70
     0
  9
$DIMSCALE
 40
1.0
  9
$DIMASZ
 40
0.18
  9
$DIMEXO
 40
0.0625
  9
$DIMDLI
 40
0.38
  9
$DIMRND
 40
0.0
  9
$DIMDLE
 40
0.0
  9
$DIMEXE
 40
0.18
  9
$DIMTP
 40
0.0
  9
$DIMTM
 40
0.0
  9
$DIMTXT
 40
0.18
  9
$DIMCEN
 40
0.09
  9
$DIMTSZ
 40
0.0
  9
$DIMTOL
 70
     0
  9
$DIMLIM
 70
     0
  9
$DIMTIH
 70
     1
  9
$DIMTOH
 70
     1
  9
$DIMSE1
 70
     0
  9
$DIMSE2
 70
     0
  9
$DIMTAD
 70
     0
  9
$DIMZIN
 70
     0
  9
$DIMBLK
  1

  9
$DIMASO
 70
     1
  9
$DIMSHO
 70
     1
  9
$DIMPOST
  1

  9
$DIMAPOST
  1

  9
$DIMALT
 70
     0
  9
$DIMALTD
 70
     2
  9
$DIMALTF
 40
25.4
  9
$DIMLFAC
 40
1.0
  9
$DIMTOFL
 70
     0
  9
$DIMTVP
 40
0.0
  9
$DIMTIX
 70
     0
  9
$DIMSOXD
 70
     0
  9
$DIMSAH
 70
     0
  9
$DIMBLK1
  1

  9
$DIMBLK2
  1

  9
$DIMSTYLE
  2
STANDARD
  9
$DIMCLRD
 70
     0
  9
$DIMCLRE
 70
     0
  9
$DIMCLRT
 70
     0
  9
$DIMTFAC
 40
1.0
  9
$DIMGAP
 40
0.09
  9
$DIMJUST
 70
     0
  9
$DIMSD1
 70
     0
  9
$DIMSD2
 70
     0
  9
$DIMTOLJ
 70
     1
  9
$DIMTZIN
 70
     0
  9
$DIMALTZ
 70
     0
  9
$DIMALTTZ
 70
     0
  9
$DIMFIT
 70
     3
  9
$DIMUPT
 70
     0
  9
$DIMUNIT
 70
     2
  9
$DIMDEC
 70
     4
  9
$DIMTDEC
 70
     4
  9
$DIMALTU
 70
     2
  9
$DIMALTTD
 70
     2
  9
$DIMTXSTY
  7
STANDARD
  9
$DIMAUNIT
 70
     0
  9
$LUNITS
 70
     2
  9
$LUPREC
 70
     4
  9
$SKETCHINC
 40
0.1
  9
$FILLETRAD
 40
0.5
  9
$AUNITS
 70
     0
  9
$AUPREC
 70
     0
  9
$MENU
  1
.
  9
$ELEVATION
 40
0.0
  9
$PELEVATION
 40
0.0
  9
$THICKNESS
 40
0.0
  9
$LIMCHECK
 70
     0
  9
$BLIPMODE
 70
     0
  9
$CHAMFERA
 40
0.5
  9
$CHAMFERB
 40
0.5
  9
$CHAMFERC
 40
1.0
  9
$CHAMFERD
 40
0.0
  9
$SKPOLY
 70
     0
  9
$TDCREATE
 40
2452030.615983067
  9
$TDUPDATE
 40
2452030.670386065
  9
$TDINDWG
 40
0.0544033449
  9
$TDUSRTIMER
 40
0.0544032292
  9
$USRTIMER
 70
     1
  9
$ANGBASE
 50
0.0
  9
$ANGDIR
 70
     0
  9
$PDMODE
 70
     0
  9
$PDSIZE
 40
0.0
  9
$PLINEWID
 40
0.0
  9
$COORDS
 70
     2
  9
$SPLFRAME
 70
     0
  9
$SPLINETYPE
 70
     6
  9
$SPLINESEGS
 70
     8
  9
$ATTDIA
 70
     0
  9
$ATTREQ
 70
     1
  9
$HANDLING
 70
  4097
  9
$HANDSEED
  5
19B
  9
$SURFTAB1
 70
     6
  9
$SURFTAB2
 70
     6
  9
$SURFTYPE
 70
     6
  9
$SURFU
 70
     6
  9
$SURFV
 70
     6
  9
$UCSNAME
  2

  9
$UCSORG
 10
0.0
 20
0.0
 30
0.0
  9
$UCSXDIR
 10
1.0
 20
0.0
 30
0.0
  9
$UCSYDIR
 10
0.0
 20
1.0
 30
0.0
  9
$PUCSNAME
  2

  9
$PUCSORG
 10
0.0
 20
0.0
 30
0.0
  9
$PUCSXDIR
 10
1.0
 20
0.0
 30
0.0
  9
$PUCSYDIR
 10
0.0
 20
1.0
 30
0.0
  9
$USERI1
 70
     0
  9
$USERI2
 70
     0
  9
$USERI3
 70
     0
  9
$USERI4
 70
     0
  9
$USERI5
 70
     0
  9
$USERR1
 40
0.0
  9
$USERR2
 40
0.0
  9
$USERR3
 40
0.0
  9
$USERR4
 40
0.0
  9
$USERR5
 40
0.0
  9
$WORLDVIEW
 70
     1
  9
$SHADEDGE
 70
     3
  9
$SHADEDIF
 70
    70
  9
$TILEMODE
 70
     1
  9
$MAXACTVP
 70
    64
  9
$PINSBASE
 10
0.0
 20
0.0
 30
0.0
  9
$PLIMCHECK
 70
     0
  9
$PEXTMIN
 10
1.000000000000000E+20
 20
1.000000000000000E+20
 30
1.000000000000000E+20
  9
$PEXTMAX
 10
-1.000000000000000E+20
 20
-1.000000000000000E+20
 30
-1.000000000000000E+20
  9
$PLIMMIN
 10
0.0
 20
0.0
  9
$PLIMMAX
 10
12.0
 20
9.0
  9
$UNITMODE
 70
     0
  9
$VISRETAIN
 70
     1
  9
$PLINEGEN
 70
     0
  9
$PSLTSCALE
 70
     1
  9
$TREEDEPTH
 70
  3020
  9
$PICKSTYLE
 70
     1
  9
$CMLSTYLE
  2
Standard
  9
$CMLJUST
 70
     0
  9
$CMLSCALE
 40
1.0
  9
$PROXYGRAPHICS
 70
     1
  9
$MEASUREMENT
 70
     0
  0
ENDSEC
  0
SECTION
  2
CLASSES
  0
CLASS
  1
ACDBDICTIONARYWDFLT
  2
AcDbDictionaryWithDefault
  3
AutoCAD 2000
 90
        0
280
     0
281
     0
  0
CLASS
  1
ACDBPLACEHOLDER
  2
AcDbPlaceHolder
  3
AutoCAD 2000
 90
        0
280
     0
281
     0
  0
CLASS
  1
LAYOUT
  2
AcDbLayout
  3
AutoCAD 2000
 90
        0
280
     0
281
     0
  0
CLASS
  1
DICTIONARYVAR
  2
AcDbDictionaryVar
  3
AutoCAD 2000
 90
        0
280
     0
281
     0
  0
CLASS
  1
LONG_TRANSACTION
  2
AcDbLongTransaction
  3
AutoCAD 2000
 90
        0
280
     0
281
     0
  0
CLASS
  1
LWPOLYLINE
  2
AcDbPolyline
  3
AutoCAD 2000
 90
        0
280
     0
281
     1
  0
CLASS
  1
HATCH
  2
AcDbHatch
  3
AutoCAD 2000
 90
        0
280
     0
281
     1
  0
CLASS
  1
XRECORD
  2
AcDbXrecord
  3
AutoCAD 2000
 90
        0
280
     0
281
     0
  0
ENDSEC
  0
SECTION
  2
TABLES
  0
TABLE
  2
VPORT
  5
8
330
0
100
AcDbSymbolTable
 70
     3
  0
VPORT
  5
176
330
8
100
AcDbSymbolTableRecord
100
AcDbViewportTableRecord
  2
*ACTIVE
 70
     0
 10
0.0
 20
0.0
 11
1.0
 21
1.0
 12
22.51892530186915
 22
0.0000043772158733
 13
0.0
 23
0.0
 14
0.5
 24
0.5
 15
0.5
 25
0.5
 16
0.0
 26
0.0
 36
1.0
 17
0.0
 27
0.0
 37
0.0
 40
2069.056032096404
 41
1.075916230366492
 42
50.0
 43
0.0
 44
0.0
 50
0.0
 51
0.0
 71
     0
 72
   100
 73
     1
 74
     0
 75
     0
 76
     0
 77
     0
 78
     0
  0
ENDTAB
  0
TABLE
  2
LTYPE
  5
5
330
0
100
AcDbSymbolTable
 70
     1
  0
LTYPE
  5
14
330
5
100
AcDbSymbolTableRecord
100
AcDbLinetypeTableRecord
  2
BYBLOCK
 70
     0
  3

 72
    65
 73
     0
 40
0.0
  0
LTYPE
  5
15
330
5
100
AcDbSymbolTableRecord
100
AcDbLinetypeTableRecord
  2
BYLAYER
 70
     0
  3

 72
    65
 73
     0
 40
0.0
  0
LTYPE
  5
16
330
5
100
AcDbSymbolTableRecord
100
AcDbLinetypeTableRecord
  2
CONTINUOUS
 70
     0
  3
Solid line
 72
    65
 73
     0
 40
0.0
  0
ENDTAB
  0
TABLE
  2
LAYER
  5
2
330
0
100
AcDbSymbolTable
 70
     7
  0
LAYER
  5
10
330
2
100
AcDbSymbolTableRecord
100
AcDbLayerTableRecord
  2
0
 70
     0
 62
     7
  6
CONTINUOUS
  0
LAYER
  5
33
330
2
100
AcDbSymbolTableRecord
100
AcDbLayerTableRecord
  2
ACS_LOCKED
 70
     4
 62
    -7
  6
CONTINUOUS
  0
LAYER
  5
52
330
2
100
AcDbSymbolTableRecord
100
AcDbLayerTableRecord
  2
DIE_PAD
 70
     0
 62
     7
  6
CONTINUOUS
  0
LAYER
  5
53
330
2
100
AcDbSymbolTableRecord
100
AcDbLayerTableRecord
  2
DIE_TEXT
 70
     0
 62
     5
  6
CONTINUOUS
  0
LAYER
  5
54
330
2
100
AcDbSymbolTableRecord
100
AcDbLayerTableRecord
  2
DIE_GEOMETRY
 70
     0
 62
     1
  6
CONTINUOUS
  0
ENDTAB
  0
TABLE
  2
STYLE
  5
3
330
0
100
AcDbSymbolTable
 70
     1
  0
STYLE
  5
11
330
3
100
AcDbSymbolTableRecord
100
AcDbTextStyleTableRecord
  2
STANDARD
 70
     0
 40
0.0
 41
1.0
 50
0.0
 71
     0
 42
0.2
  3
txt
  4

  0
ENDTAB
  0
TABLE
  2
VIEW
  5
6
330
0
100
AcDbSymbolTable
 70
     0
  0
ENDTAB
  0
TABLE
  2
UCS
  5
7
330
0
100
AcDbSymbolTable
 70
     0
  0
ENDTAB
  0
TABLE
  2
APPID
  5
9
330
0
100
AcDbSymbolTable
 70
     1
  0
APPID
  5
12
330
9
100
AcDbSymbolTableRecord
100
AcDbRegAppTableRecord
  2
ACAD
 70
     0
  0
ENDTAB
  0
TABLE
  2
DIMSTYLE
  5
A
330
0
100
AcDbSymbolTable
 70
     1
  0
DIMSTYLE
105
27
330
A
100
AcDbSymbolTableRecord
100
AcDbDimStyleTableRecord
  2
STANDARD
 70
     0
  3

  4

  5

  6

  7

 40
1.0
 41
0.18
 42
0.0625
 43
0.38
 44
0.18
 45
0.0
 46
0.0
 47
0.0
 48
0.0
140
0.18
141
0.09
142
0.0
143
25.4
144
1.0
145
0.0
146
1.0
147
0.09
 71
     0
 72
     0
 73
     1
 74
     1
 75
     0
 76
     0
 77
     0
 78
     0
170
     0
171
     2
172
     0
173
     0
174
     0
175
     0
176
     0
177
     0
178
     0
270
     2
271
     4
272
     4
273
     2
274
     2
340
11
275
     0
280
     0
281
     0
282
     0
283
     1
284
     0
285
     0
286
     0
287
     3
288
     0
  0
ENDTAB
  0
TABLE
  2
BLOCK_RECORD
  5
1
330
0
100
AcDbSymbolTable
 70
     5
  0
BLOCK_RECORD
  5
1F
102
{ACAD_XDICTIONARY
360
199
102
}
330
1
100
AcDbSymbolTableRecord
100
AcDbBlockTableRecord
  2
*MODEL_SPACE
  0
BLOCK_RECORD
  5
1B
102
{ACAD_XDICTIONARY
360
197
102
}
330
1
100
AcDbSymbolTableRecord
100
AcDbBlockTableRecord
  2
*PAPER_SPACE
  0
BLOCK_RECORD
  5
34
330
1
100
AcDbSymbolTableRecord
100
AcDbBlockTableRecord
  2
ACS_PROJECT
  0
BLOCK_RECORD
  5
3F
330
1
100
AcDbSymbolTableRecord
100
AcDbBlockTableRecord
  2
ACS_DIEIN
  0
BLOCK_RECORD
  5
56
330
1
100
AcDbSymbolTableRecord
100
AcDbBlockTableRecord
  2
DP_120
  0
BLOCK_RECORD
  5
124
330
1
100
AcDbSymbolTableRecord
100
AcDbBlockTableRecord
  2
ACS_EXTRACT
  0
ENDTAB
  0
ENDSEC
  0
SECTION
  2
BLOCKS
  0
BLOCK
  5
20
330
1F
100
AcDbEntity
  8
0
100
AcDbBlockBegin
  2
*MODEL_SPACE
 70
     0
 10
0.0
 20
0.0
 30
0.0
  3
*MODEL_SPACE
  1

  0
ENDBLK
  5
21
330
1F
100
AcDbEntity
  8
0
100
AcDbBlockEnd
  0
BLOCK
  5
1C
330
1B
100
AcDbEntity
 67
     1
  8
0
100
AcDbBlockBegin
  2
*PAPER_SPACE
 70
     0
 10
0.0
 20
0.0
 30
0.0
  3
*PAPER_SPACE
  1

  0
ENDBLK
  5
1D
330
1B
100
AcDbEntity
 67
     1
  8
0
100
AcDbBlockEnd
  0
BLOCK
  5
35
330
34
100
AcDbEntity
  8
0
100
AcDbBlockBegin
  2
ACS_PROJECT
 70
     2
 10
0.0
 20
0.0
 30
0.0
  3
ACS_PROJECT
  1

  0
ATTDEF
  5
37
330
34
100
AcDbEntity
  8
ACS_LOCKED
100
AcDbText
 10
0.0
 20
0.0
 30
0.0
 40
0.001
  1

100
AcDbAttributeDefinition
  3
UNITS
  2
UNITS
 70
     1
  0
ATTDEF
  5
38
330
34
100
AcDbEntity
  8
ACS_LOCKED
100
AcDbText
 10
0.0
 20
0.0
 30
0.0
 40
0.001
  1

100
AcDbAttributeDefinition
  3
AIF_FILE
  2
AIF_FILE
 70
     1
  0
ATTDEF
  5
39
330
34
100
AcDbEntity
  8
ACS_LOCKED
100
AcDbText
 10
0.0
 20
0.0
 30
0.0
 40
0.001
  1

100
AcDbAttributeDefinition
  3
TEC_FILE
  2
TEC_FILE
 70
     1
  0
ENDBLK
  5
36
330
34
100
AcDbEntity
  8
0
100
AcDbBlockEnd
  0
BLOCK
  5
40
330
3F
100
AcDbEntity
  8
0
100
AcDbBlockBegin
  2
ACS_DIEIN
 70
     2
 10
0.0
 20
0.0
 30
0.0
  3
ACS_DIEIN
  1

  0
ATTDEF
  5
42
330
3F
100
AcDbEntity
  8
ACS_LOCKED
100
AcDbText
 10
0.0
 20
0.0
 30
0.0
 40
0.001
  1

100
AcDbAttributeDefinition
  3
ORIGINAL_CENTER
  2
ORIGINAL_CENTER
 70
     1
  0
ATTDEF
  5
43
330
3F
100
AcDbEntity
  8
ACS_LOCKED
100
AcDbText
 10
0.0
 20
0.0
 30
0.0
 40
0.001
  1

100
AcDbAttributeDefinition
  3
CENTER_X
  2
CENTER_X
 70
     1
  0
ATTDEF
  5
44
330
3F
100
AcDbEntity
  8
ACS_LOCKED
100
AcDbText
 10
0.0
 20
0.0
 30
0.0
 40
0.001
  1

100
AcDbAttributeDefinition
  3
CENTER_Y
  2
CENTER_Y
 70
     1
  0
ATTDEF
  5
45
330
3F
100
AcDbEntity
  8
ACS_LOCKED
100
AcDbText
 10
0.0
 20
0.0
 30
0.0
 40
0.001
  1

100
AcDbAttributeDefinition
  3
SCALE
  2
SCALE
 70
     1
  0
ATTDEF
  5
46
330
3F
100
AcDbEntity
  8
ACS_LOCKED
100
AcDbText
 10
0.0
 20
0.0
 30
0.0
 40
0.001
  1

100
AcDbAttributeDefinition
  3
ROTATION
  2
ROTATION
 70
     1
  0
ATTDEF
  5
47
330
3F
100
AcDbEntity
  8
ACS_LOCKED
100
AcDbText
 10
0.0
 20
0.0
 30
0.0
 40
0.001
  1

100
AcDbAttributeDefinition
  3
MIRROR_HOR
  2
MIRROR_HOR
 70
     1
  0
ATTDEF
  5
48
330
3F
100
AcDbEntity
  8
ACS_LOCKED
100
AcDbText
 10
0.0
 20
0.0
 30
0.0
 40
0.001
  1

100
AcDbAttributeDefinition
  3
MIRROR_VER
  2
MIRROR_VER
 70
     1
  0
ENDBLK
  5
41
330
3F
100
AcDbEntity
  8
0
100
AcDbBlockEnd
  0
BLOCK
  5
57
330
56
100
AcDbEntity
  8
0
100
AcDbBlockBegin
  2
DP_120
 70
     2
 10
0.0
 20
0.0
 30
0.0
  3
DP_120
  1

  0
LWPOLYLINE
  5
59
330
56
100
AcDbEntity
  8
0
100
AcDbPolyline
 90
        5
 70
     1
 43
0.0
 10
-60.0
 20
60.0
 10
60.0
 20
60.0
 10
60.0
 20
-60.0
 10
-60.0
 20
-60.0
 10
-60.0
 20
60.0
  0
ATTDEF
  5
5A
330
56
100
AcDbEntity
  8
DIE_TEXT
100
AcDbText
 10
-45.0
 20
15.0
 30
0.0
 40
30.0
  1

100
AcDbAttributeDefinition
  3
DIEPAD
  2
DIEPAD
 70
     0
  0
ATTDEF
  5
5B
330
56
100
AcDbEntity
  8
DIE_TEXT
100
AcDbText
 10
0.0
 20
0.0
 30
0.0
 40
30.0
  1

100
AcDbAttributeDefinition
  3
FINGER
  2
FINGER
 70
     1
  0
ATTDEF
  5
5C
330
56
100
AcDbEntity
  8
DIE_TEXT
100
AcDbText
 10
0.0
 20
0.0
 30
0.0
 40
30.0
  1

100
AcDbAttributeDefinition
  3
BALL
  2
BALL
 70
     1
  0
ATTDEF
  5
5D
330
56
100
AcDbEntity
  8
DIE_TEXT
100
AcDbText
 10
-45.0
 20
-45.0
 30
0.0
 40
30.0
  1

100
AcDbAttributeDefinition
  3
NET
  2
NET
 70
     0
  0
ATTDEF
  5
5E
330
56
100
AcDbEntity
  8
DIE_TEXT
100
AcDbText
 10
0.0
 20
0.0
 30
0.0
 40
30.0
  1

100
AcDbAttributeDefinition
  3
TIER
  2
TIER
 70
     1
  0
ATTDEF
  5
5F
330
56
100
AcDbEntity
  8
DIE_TEXT
100
AcDbText
 10
0.0
 20
0.0
 30
0.0
 40
30.0
  1

100
AcDbAttributeDefinition
  3
BOND
  2
BOND
 70
     1
  0
ENDBLK
  5
58
330
56
100
AcDbEntity
  8
0
100
AcDbBlockEnd
  0
BLOCK
  5
125
330
124
100
AcDbEntity
  8
0
100
AcDbBlockBegin
  2
ACS_EXTRACT
 70
     2
 10
0.0
 20
0.0
 30
0.0
  3
ACS_EXTRACT
  1

  0
ATTDEF
  5
127
330
124
100
AcDbEntity
  8
ACS_LOCKED
100
AcDbText
 10
0.0
 20
0.0
 30
0.0
 40
0.001
  1

100
AcDbAttributeDefinition
  3
Die Name
  2
Die Name
 70
     1
  0
ATTDEF
  5
128
330
124
100
AcDbEntity
  8
ACS_LOCKED
100
AcDbText
 10
0.0
 20
0.0
 30
0.0
 40
0.001
  1

100
AcDbAttributeDefinition
  3
Die Width
  2
Die Width
 70
     1
  0
ATTDEF
  5
129
330
124
100
AcDbEntity
  8
ACS_LOCKED
100
AcDbText
 10
0.0
 20
0.0
 30
0.0
 40
0.001
  1

100
AcDbAttributeDefinition
  3
Die Height
  2
Die Height
 70
     1
  0
ATTDEF
  5
12A
330
124
100
AcDbEntity
  8
ACS_LOCKED
100
AcDbText
 10
0.0
 20
0.0
 30
0.0
 40
0.001
  1

100
AcDbAttributeDefinition
  3
Minimum Die Pad Opening
  2
Minimum Die Pad Opening
 70
     1
  0
ATTDEF
  5
12B
330
124
100
AcDbEntity
  8
ACS_LOCKED
100
AcDbText
 10
0.0
 20
0.0
 30
0.0
 40
0.001
  1

100
AcDbAttributeDefinition
  3
Minimum Die Pad Pitch
  2
Minimum Die Pad Pitch
 70
     1
  0
ATTDEF
  5
12C
330
124
100
AcDbEntity
  8
ACS_LOCKED
100
AcDbText
 10
0.0
 20
0.0
 30
0.0
 40
0.001
  1

100
AcDbAttributeDefinition
  3
Number of Die Pads
  2
Number of Die Pads
 70
     1
  0
ATTDEF
  5
12D
330
124
100
AcDbEntity
  8
ACS_LOCKED
100
AcDbText
 10
0.0
 20
0.0
 30
0.0
 40
0.001
  1

100
AcDbAttributeDefinition
  3
BGA Population
  2
BGA Population
 70
     1
  0
ATTDEF
  5
12E
330
124
100
AcDbEntity
  8
ACS_LOCKED
100
AcDbText
 10
0.0
 20
0.0
 30
0.0
 40
0.001
  1

100
AcDbAttributeDefinition
  3
BGA Depopulation
  2
BGA Depopulation
 70
     1
  0
ATTDEF
  5
12F
330
124
100
AcDbEntity
  8
ACS_LOCKED
100
AcDbText
 10
0.0
 20
0.0
 30
0.0
 40
0.001
  1

100
AcDbAttributeDefinition
  3
BGA Repopulation
  2
BGA Repopulation
 70
     1
  0
ATTDEF
  5
130
330
124
100
AcDbEntity
  8
ACS_LOCKED
100
AcDbText
 10
0.0
 20
0.0
 30
0.0
 40
0.001
  1

100
AcDbAttributeDefinition
  3
BGA Missing Balls
  2
BGA Missing Balls
 70
     1
  0
ENDBLK
  5
126
330
124
100
AcDbEntity
  8
0
100
AcDbBlockEnd
  0
ENDSEC
  0
SECTION
  2
ENTITIES
  0
INSERT
  5
3A
330
1F
100
AcDbEntity
  8
ACS_LOCKED
100
AcDbBlockReference
 66
     1
  2
ACS_PROJECT
 10
0.0
 20
0.0
 30
0.0
  0
ATTRIB
  5
3C
330
3A
100
AcDbEntity
  8
ACS_LOCKED
100
AcDbText
 10
0.0
 20
0.0
 30
0.0
 40
0.001
  1
UM
100
AcDbAttribute
  2
UNITS
 70
     1
  0
ATTRIB
  5
3D
330
3A
100
AcDbEntity
  8
ACS_LOCKED
100
AcDbText
 10
0.0
 20
0.0
 30
0.0
 40
0.001
  1
D:\junk\fa4st\example_24.aif
100
AcDbAttribute
  2
AIF_FILE
 70
     1
  0
ATTRIB
  5
3E
330
3A
100
AcDbEntity
  8
ACS_LOCKED
100
AcDbText
 10
0.0
 20
0.0
 30
0.0
 40
0.001
  1
d:\ACS Package Tools 2000\FA4ST\Examples\standard.tec
100
AcDbAttribute
  2
TEC_FILE
 70
     1
  0
SEQEND
  5
3B
330
3A
100
AcDbEntity
  8
ACS_LOCKED
  0
INSERT
  5
49
330
1F
100
AcDbEntity
  8
ACS_LOCKED
100
AcDbBlockReference
 66
     1
  2
ACS_DIEIN
 10
0.0
 20
0.0
 30
0.0
  0
ATTRIB
  5
4B
330
49
100
AcDbEntity
  8
ACS_LOCKED
100
AcDbText
 10
0.0
 20
0.0
 30
0.0
 40
0.001
  1
0
100
AcDbAttribute
  2
ORIGINAL_CENTER
 70
     1
  0
ATTRIB
  5
4C
330
49
100
AcDbEntity
  8
ACS_LOCKED
100
AcDbText
 10
0.0
 20
0.0
 30
0.0
 40
0.001
  1
0.0
100
AcDbAttribute
  2
CENTER_X
 70
     1
  0
ATTRIB
  5
4D
330
49
100
AcDbEntity
  8
ACS_LOCKED
100
AcDbText
 10
0.0
 20
0.0
 30
0.0
 40
0.001
  1
0.0
100
AcDbAttribute
  2
CENTER_Y
 70
     1
  0
ATTRIB
  5
4E
330
49
100
AcDbEntity
  8
ACS_LOCKED
100
AcDbText
 10
0.0
 20
0.0
 30
0.0
 40
0.001
  1
1.0
100
AcDbAttribute
  2
SCALE
 70
     1
  0
ATTRIB
  5
4F
330
49
100
AcDbEntity
  8
ACS_LOCKED
100
AcDbText
 10
0.0
 20
0.0
 30
0.0
 40
0.001
  1
0
100
AcDbAttribute
  2
ROTATION
 70
     1
  0
ATTRIB
  5
50
330
49
100
AcDbEntity
  8
ACS_LOCKED
100
AcDbText
 10
0.0
 20
0.0
 30
0.0
 40
0.001
  1
0
100
AcDbAttribute
  2
MIRROR_HOR
 70
     1
  0
ATTRIB
  5
51
330
49
100
AcDbEntity
  8
ACS_LOCKED
100
AcDbText
 10
0.0
 20
0.0
 30
0.0
 40
0.001
  1
0
100
AcDbAttribute
  2
MIRROR_VER
 70
     1
  0
SEQEND
  5
4A
330
49
100
AcDbEntity
  8
ACS_LOCKED
  0
LWPOLYLINE
  5
55
330
1F
100
AcDbEntity
  8
DIE_GEOMETRY
100
AcDbPolyline
 90
        5
 70
     1
 43
0.0
 10
-940.0
 20
940.0
 10
940.0
 20
940.0
 10
940.0
 20
-940.0
 10
-940.0
 20
-940.0
 10
-940.0
 20
940.0
  0
INSERT
  5
60
330
1F
100
AcDbEntity
  8
DIE_PAD
100
AcDbBlockReference
 66
     1
  2
DP_120
 10
-860.0
 20
600.0
 30
0.0
  0
ATTRIB
  5
62
330
60
100
AcDbEntity
  8
DIE_TEXT
100
AcDbText
 10
-905.0
 20
615.0
 30
0.0
 40
30.0
  1
1
100
AcDbAttribute
  2
DIEPAD
 70
     0
  0
ATTRIB
  5
63
330
60
100
AcDbEntity
  8
DIE_TEXT
100
AcDbText
 10
-860.0
 20
600.0
 30
0.0
 40
30.0
  1

100
AcDbAttribute
  2
FINGER
 70
     1
  0
ATTRIB
  5
64
330
60
100
AcDbEntity
  8
DIE_TEXT
100
AcDbText
 10
-860.0
 20
600.0
 30
0.0
 40
30.0
  1

100
AcDbAttribute
  2
BALL
 70
     1
  0
ATTRIB
  5
65
330
60
100
AcDbEntity
  8
DIE_TEXT
100
AcDbText
 10
-905.0
 20
555.0
 30
0.0
 40
30.0
  1
IO1
100
AcDbAttribute
  2
NET
 70
     0
  0
ATTRIB
  5
66
330
60
100
AcDbEntity
  8
DIE_TEXT
100
AcDbText
 10
-860.0
 20
600.0
 30
0.0
 40
30.0
  1
L1
100
AcDbAttribute
  2
TIER
 70
     1
  0
ATTRIB
  5
67
330
60
100
AcDbEntity
  8
DIE_TEXT
100
AcDbText
 10
-860.0
 20
600.0
 30
0.0
 40
30.0
  1

100
AcDbAttribute
  2
BOND
 70
     1
  0
SEQEND
  5
61
330
60
100
AcDbEntity
  8
DIE_PAD
  0
INSERT
  5
68
330
1F
100
AcDbEntity
  8
DIE_PAD
100
AcDbBlockReference
 66
     1
  2
DP_120
 10
-860.0
 20
360.0
 30
0.0
  0
ATTRIB
  5
6A
330
68
100
AcDbEntity
  8
DIE_TEXT
100
AcDbText
 10
-905.0
 20
375.0
 30
0.0
 40
30.0
  1
2
100
AcDbAttribute
  2
DIEPAD
 70
     0
  0
ATTRIB
  5
6B
330
68
100
AcDbEntity
  8
DIE_TEXT
100
AcDbText
 10
-860.0
 20
360.0
 30
0.0
 40
30.0
  1

100
AcDbAttribute
  2
FINGER
 70
     1
  0
ATTRIB
  5
6C
330
68
100
AcDbEntity
  8
DIE_TEXT
100
AcDbText
 10
-860.0
 20
360.0
 30
0.0
 40
30.0
  1

100
AcDbAttribute
  2
BALL
 70
     1
  0
ATTRIB
  5
6D
330
68
100
AcDbEntity
  8
DIE_TEXT
100
AcDbText
 10
-905.0
 20
315.0
 30
0.0
 40
30.0
  1
VCCINT
100
AcDbAttribute
  2
NET
 70
     0
  0
ATTRIB
  5
6E
330
68
100
AcDbEntity
  8
DIE_TEXT
100
AcDbText
 10
-860.0
 20
360.0
 30
0.0
 40
30.0
  1
L1
100
AcDbAttribute
  2
TIER
 70
     1
  0
ATTRIB
  5
6F
330
68
100
AcDbEntity
  8
DIE_TEXT
100
AcDbText
 10
-860.0
 20
360.0
 30
0.0
 40
30.0
  1

100
AcDbAttribute
  2
BOND
 70
     1
  0
SEQEND
  5
69
330
68
100
AcDbEntity
  8
DIE_PAD
  0
INSERT
  5
70
330
1F
100
AcDbEntity
  8
DIE_PAD
100
AcDbBlockReference
 66
     1
  2
DP_120
 10
-860.0
 20
120.0
 30
0.0
  0
ATTRIB
  5
72
330
70
100
AcDbEntity
  8
DIE_TEXT
100
AcDbText
 10
-905.0
 20
135.0
 30
0.0
 40
30.0
  1
3
100
AcDbAttribute
  2
DIEPAD
 70
     0
  0
ATTRIB
  5
73
330
70
100
AcDbEntity
  8
DIE_TEXT
100
AcDbText
 10
-860.0
 20
120.0
 30
0.0
 40
30.0
  1

100
AcDbAttribute
  2
FINGER
 70
     1
  0
ATTRIB
  5
74
330
70
100
AcDbEntity
  8
DIE_TEXT
100
AcDbText
 10
-860.0
 20
120.0
 30
0.0
 40
30.0
  1

100
AcDbAttribute
  2
BALL
 70
     1
  0
ATTRIB
  5
75
330
70
100
AcDbEntity
  8
DIE_TEXT
100
AcDbText
 10
-905.0
 20
75.0
 30
0.0
 40
30.0
  1
VSS
100
AcDbAttribute
  2
NET
 70
     0
  0
ATTRIB
  5
76
330
70
100
AcDbEntity
  8
DIE_TEXT
100
AcDbText
 10
-860.0
 20
120.0
 30
0.0
 40
30.0
  1
L1
100
AcDbAttribute
  2
TIER
 70
     1
  0
ATTRIB
  5
77
330
70
100
AcDbEntity
  8
DIE_TEXT
100
AcDbText
 10
-860.0
 20
120.0
 30
0.0
 40
30.0
  1

100
AcDbAttribute
  2
BOND
 70
     1
  0
SEQEND
  5
71
330
70
100
AcDbEntity
  8
DIE_PAD
  0
INSERT
  5
78
330
1F
100
AcDbEntity
  8
DIE_PAD
100
AcDbBlockReference
 66
     1
  2
DP_120
 10
-860.0
 20
-120.0
 30
0.0
  0
ATTRIB
  5
7A
330
78
100
AcDbEntity
  8
DIE_TEXT
100
AcDbText
 10
-905.0
 20
-105.0
 30
0.0
 40
30.0
  1
4
100
AcDbAttribute
  2
DIEPAD
 70
     0
  0
ATTRIB
  5
7B
330
78
100
AcDbEntity
  8
DIE_TEXT
100
AcDbText
 10
-860.0
 20
-120.0
 30
0.0
 40
30.0
  1

100
AcDbAttribute
  2
FINGER
 70
     1
  0
ATTRIB
  5
7C
330
78
100
AcDbEntity
  8
DIE_TEXT
100
AcDbText
 10
-860.0
 20
-120.0
 30
0.0
 40
30.0
  1

100
AcDbAttribute
  2
BALL
 70
     1
  0
ATTRIB
  5
7D
330
78
100
AcDbEntity
  8
DIE_TEXT
100
AcDbText
 10
-905.0
 20
-165.0
 30
0.0
 40
30.0
  1
VCC
100
AcDbAttribute
  2
NET
 70
     0
  0
ATTRIB
  5
7E
330
78
100
AcDbEntity
  8
DIE_TEXT
100
AcDbText
 10
-860.0
 20
-120.0
 30
0.0
 40
30.0
  1
L1
100
AcDbAttribute
  2
TIER
 70
     1
  0
ATTRIB
  5
7F
330
78
100
AcDbEntity
  8
DIE_TEXT
100
AcDbText
 10
-860.0
 20
-120.0
 30
0.0
 40
30.0
  1

100
AcDbAttribute
  2
BOND
 70
     1
  0
SEQEND
  5
79
330
78
100
AcDbEntity
  8
DIE_PAD
  0
INSERT
  5
80
330
1F
100
AcDbEntity
  8
DIE_PAD
100
AcDbBlockReference
 66
     1
  2
DP_120
 10
-860.0
 20
-360.0
 30
0.0
  0
ATTRIB
  5
82
330
80
100
AcDbEntity
  8
DIE_TEXT
100
AcDbText
 10
-905.0
 20
-345.0
 30
0.0
 40
30.0
  1
5
100
AcDbAttribute
  2
DIEPAD
 70
     0
  0
ATTRIB
  5
83
330
80
100
AcDbEntity
  8
DIE_TEXT
100
AcDbText
 10
-860.0
 20
-360.0
 30
0.0
 40
30.0
  1

100
AcDbAttribute
  2
FINGER
 70
     1
  0
ATTRIB
  5
84
330
80
100
AcDbEntity
  8
DIE_TEXT
100
AcDbText
 10
-860.0
 20
-360.0
 30
0.0
 40
30.0
  1

100
AcDbAttribute
  2
BALL
 70
     1
  0
ATTRIB
  5
85
330
80
100
AcDbEntity
  8
DIE_TEXT
100
AcDbText
 10
-905.0
 20
-405.0
 30
0.0
 40
30.0
  1
IO5
100
AcDbAttribute
  2
NET
 70
     0
  0
ATTRIB
  5
86
330
80
100
AcDbEntity
  8
DIE_TEXT
100
AcDbText
 10
-860.0
 20
-360.0
 30
0.0
 40
30.0
  1
L1
100
AcDbAttribute
  2
TIER
 70
     1
  0
ATTRIB
  5
87
330
80
100
AcDbEntity
  8
DIE_TEXT
100
AcDbText
 10
-860.0
 20
-360.0
 30
0.0
 40
30.0
  1

100
AcDbAttribute
  2
BOND
 70
     1
  0
SEQEND
  5
81
330
80
100
AcDbEntity
  8
DIE_PAD
  0
INSERT
  5
88
330
1F
100
AcDbEntity
  8
DIE_PAD
100
AcDbBlockReference
 66
     1
  2
DP_120
 10
-860.0
 20
-600.0
 30
0.0
  0
ATTRIB
  5
8A
330
88
100
AcDbEntity
  8
DIE_TEXT
100
AcDbText
 10
-905.0
 20
-585.0
 30
0.0
 40
30.0
  1
6
100
AcDbAttribute
  2
DIEPAD
 70
     0
  0
ATTRIB
  5
8B
330
88
100
AcDbEntity
  8
DIE_TEXT
100
AcDbText
 10
-860.0
 20
-600.0
 30
0.0
 40
30.0
  1

100
AcDbAttribute
  2
FINGER
 70
     1
  0
ATTRIB
  5
8C
330
88
100
AcDbEntity
  8
DIE_TEXT
100
AcDbText
 10
-860.0
 20
-600.0
 30
0.0
 40
30.0
  1

100
AcDbAttribute
  2
BALL
 70
     1
  0
ATTRIB
  5
8D
330
88
100
AcDbEntity
  8
DIE_TEXT
100
AcDbText
 10
-905.0
 20
-645.0
 30
0.0
 40
30.0
  1
IO6
100
AcDbAttribute
  2
NET
 70
     0
  0
ATTRIB
  5
8E
330
88
100
AcDbEntity
  8
DIE_TEXT
100
AcDbText
 10
-860.0
 20
-600.0
 30
0.0
 40
30.0
  1
L1
100
AcDbAttribute
  2
TIER
 70
     1
  0
ATTRIB
  5
8F
330
88
100
AcDbEntity
  8
DIE_TEXT
100
AcDbText
 10
-860.0
 20
-600.0
 30
0.0
 40
30.0
  1

100
AcDbAttribute
  2
BOND
 70
     1
  0
SEQEND
  5
89
330
88
100
AcDbEntity
  8
DIE_PAD
  0
INSERT
  5
90
330
1F
100
AcDbEntity
  8
DIE_PAD
100
AcDbBlockReference
 66
     1
  2
DP_120
 10
-600.0
 20
-860.0
 30
0.0
  0
ATTRIB
  5
92
330
90
100
AcDbEntity
  8
DIE_TEXT
100
AcDbText
 10
-645.0
 20
-845.0
 30
0.0
 40
30.0
  1
7
100
AcDbAttribute
  2
DIEPAD
 70
     0
  0
ATTRIB
  5
93
330
90
100
AcDbEntity
  8
DIE_TEXT
100
AcDbText
 10
-600.0
 20
-860.0
 30
0.0
 40
30.0
  1

100
AcDbAttribute
  2
FINGER
 70
     1
  0
ATTRIB
  5
94
330
90
100
AcDbEntity
  8
DIE_TEXT
100
AcDbText
 10
-600.0
 20
-860.0
 30
0.0
 40
30.0
  1

100
AcDbAttribute
  2
BALL
 70
     1
  0
ATTRIB
  5
95
330
90
100
AcDbEntity
  8
DIE_TEXT
100
AcDbText
 10
-645.0
 20
-905.0
 30
0.0
 40
30.0
  1
IO7
100
AcDbAttribute
  2
NET
 70
     0
  0
ATTRIB
  5
96
330
90
100
AcDbEntity
  8
DIE_TEXT
100
AcDbText
 10
-600.0
 20
-860.0
 30
0.0
 40
30.0
  1
B1
100
AcDbAttribute
  2
TIER
 70
     1
  0
ATTRIB
  5
97
330
90
100
AcDbEntity
  8
DIE_TEXT
100
AcDbText
 10
-600.0
 20
-860.0
 30
0.0
 40
30.0
  1

100
AcDbAttribute
  2
BOND
 70
     1
  0
SEQEND
  5
91
330
90
100
AcDbEntity
  8
DIE_PAD
  0
INSERT
  5
98
330
1F
100
AcDbEntity
  8
DIE_PAD
100
AcDbBlockReference
 66
     1
  2
DP_120
 10
-360.0
 20
-860.0
 30
0.0
  0
ATTRIB
  5
9A
330
98
100
AcDbEntity
  8
DIE_TEXT
100
AcDbText
 10
-405.0
 20
-845.0
 30
0.0
 40
30.0
  1
8
100
AcDbAttribute
  2
DIEPAD
 70
     0
  0
ATTRIB
  5
9B
330
98
100
AcDbEntity
  8
DIE_TEXT
100
AcDbText
 10
-360.0
 20
-860.0
 30
0.0
 40
30.0
  1

100
AcDbAttribute
  2
FINGER
 70
     1
  0
ATTRIB
  5
9C
330
98
100
AcDbEntity
  8
DIE_TEXT
100
AcDbText
 10
-360.0
 20
-860.0
 30
0.0
 40
30.0
  1

100
AcDbAttribute
  2
BALL
 70
     1
  0
ATTRIB
  5
9D
330
98
100
AcDbEntity
  8
DIE_TEXT
100
AcDbText
 10
-405.0
 20
-905.0
 30
0.0
 40
30.0
  1
VCCINT
100
AcDbAttribute
  2
NET
 70
     0
  0
ATTRIB
  5
9E
330
98
100
AcDbEntity
  8
DIE_TEXT
100
AcDbText
 10
-360.0
 20
-860.0
 30
0.0
 40
30.0
  1
B1
100
AcDbAttribute
  2
TIER
 70
     1
  0
ATTRIB
  5
9F
330
98
100
AcDbEntity
  8
DIE_TEXT
100
AcDbText
 10
-360.0
 20
-860.0
 30
0.0
 40
30.0
  1

100
AcDbAttribute
  2
BOND
 70
     1
  0
SEQEND
  5
99
330
98
100
AcDbEntity
  8
DIE_PAD
  0
INSERT
  5
A0
330
1F
100
AcDbEntity
  8
DIE_PAD
100
AcDbBlockReference
 66
     1
  2
DP_120
 10
-120.0
 20
-860.0
 30
0.0
  0
ATTRIB
  5
A2
330
A0
100
AcDbEntity
  8
DIE_TEXT
100
AcDbText
 10
-165.0
 20
-845.0
 30
0.0
 40
30.0
  1
9
100
AcDbAttribute
  2
DIEPAD
 70
     0
  0
ATTRIB
  5
A3
330
A0
100
AcDbEntity
  8
DIE_TEXT
100
AcDbText
 10
-120.0
 20
-860.0
 30
0.0
 40
30.0
  1

100
AcDbAttribute
  2
FINGER
 70
     1
  0
ATTRIB
  5
A4
330
A0
100
AcDbEntity
  8
DIE_TEXT
100
AcDbText
 10
-120.0
 20
-860.0
 30
0.0
 40
30.0
  1

100
AcDbAttribute
  2
BALL
 70
     1
  0
ATTRIB
  5
A5
330
A0
100
AcDbEntity
  8
DIE_TEXT
100
AcDbText
 10
-165.0
 20
-905.0
 30
0.0
 40
30.0
  1
VSS
100
AcDbAttribute
  2
NET
 70
     0
  0
ATTRIB
  5
A6
330
A0
100
AcDbEntity
  8
DIE_TEXT
100
AcDbText
 10
-120.0
 20
-860.0
 30
0.0
 40
30.0
  1
B1
100
AcDbAttribute
  2
TIER
 70
     1
  0
ATTRIB
  5
A7
330
A0
100
AcDbEntity
  8
DIE_TEXT
100
AcDbText
 10
-120.0
 20
-860.0
 30
0.0
 40
30.0
  1

100
AcDbAttribute
  2
BOND
 70
     1
  0
SEQEND
  5
A1
330
A0
100
AcDbEntity
  8
DIE_PAD
  0
INSERT
  5
A8
330
1F
100
AcDbEntity
  8
DIE_PAD
100
AcDbBlockReference
 66
     1
  2
DP_120
 10
120.0
 20
-860.0
 30
0.0
  0
ATTRIB
  5
AA
330
A8
100
AcDbEntity
  8
DIE_TEXT
100
AcDbText
 10
75.0
 20
-845.0
 30
0.0
 40
30.0
  1
10
100
AcDbAttribute
  2
DIEPAD
 70
     0
  0
ATTRIB
  5
AB
330
A8
100
AcDbEntity
  8
DIE_TEXT
100
AcDbText
 10
120.0
 20
-860.0
 30
0.0
 40
30.0
  1

100
AcDbAttribute
  2
FINGER
 70
     1
  0
ATTRIB
  5
AC
330
A8
100
AcDbEntity
  8
DIE_TEXT
100
AcDbText
 10
120.0
 20
-860.0
 30
0.0
 40
30.0
  1

100
AcDbAttribute
  2
BALL
 70
     1
  0
ATTRIB
  5
AD
330
A8
100
AcDbEntity
  8
DIE_TEXT
100
AcDbText
 10
75.0
 20
-905.0
 30
0.0
 40
30.0
  1
VCC
100
AcDbAttribute
  2
NET
 70
     0
  0
ATTRIB
  5
AE
330
A8
100
AcDbEntity
  8
DIE_TEXT
100
AcDbText
 10
120.0
 20
-860.0
 30
0.0
 40
30.0
  1
B1
100
AcDbAttribute
  2
TIER
 70
     1
  0
ATTRIB
  5
AF
330
A8
100
AcDbEntity
  8
DIE_TEXT
100
AcDbText
 10
120.0
 20
-860.0
 30
0.0
 40
30.0
  1

100
AcDbAttribute
  2
BOND
 70
     1
  0
SEQEND
  5
A9
330
A8
100
AcDbEntity
  8
DIE_PAD
  0
INSERT
  5
B0
330
1F
100
AcDbEntity
  8
DIE_PAD
100
AcDbBlockReference
 66
     1
  2
DP_120
 10
360.0
 20
-860.0
 30
0.0
  0
ATTRIB
  5
B2
330
B0
100
AcDbEntity
  8
DIE_TEXT
100
AcDbText
 10
315.0
 20
-845.0
 30
0.0
 40
30.0
  1
11
100
AcDbAttribute
  2
DIEPAD
 70
     0
  0
ATTRIB
  5
B3
330
B0
100
AcDbEntity
  8
DIE_TEXT
100
AcDbText
 10
360.0
 20
-860.0
 30
0.0
 40
30.0
  1

100
AcDbAttribute
  2
FINGER
 70
     1
  0
ATTRIB
  5
B4
330
B0
100
AcDbEntity
  8
DIE_TEXT
100
AcDbText
 10
360.0
 20
-860.0
 30
0.0
 40
30.0
  1

100
AcDbAttribute
  2
BALL
 70
     1
  0
ATTRIB
  5
B5
330
B0
100
AcDbEntity
  8
DIE_TEXT
100
AcDbText
 10
315.0
 20
-905.0
 30
0.0
 40
30.0
  1
IO11
100
AcDbAttribute
  2
NET
 70
     0
  0
ATTRIB
  5
B6
330
B0
100
AcDbEntity
  8
DIE_TEXT
100
AcDbText
 10
360.0
 20
-860.0
 30
0.0
 40
30.0
  1
B1
100
AcDbAttribute
  2
TIER
 70
     1
  0
ATTRIB
  5
B7
330
B0
100
AcDbEntity
  8
DIE_TEXT
100
AcDbText
 10
360.0
 20
-860.0
 30
0.0
 40
30.0
  1

100
AcDbAttribute
  2
BOND
 70
     1
  0
SEQEND
  5
B1
330
B0
100
AcDbEntity
  8
DIE_PAD
  0
INSERT
  5
B8
330
1F
100
AcDbEntity
  8
DIE_PAD
100
AcDbBlockReference
 66
     1
  2
DP_120
 10
600.0
 20
-860.0
 30
0.0
  0
ATTRIB
  5
BA
330
B8
100
AcDbEntity
  8
DIE_TEXT
100
AcDbText
 10
555.0
 20
-845.0
 30
0.0
 40
30.0
  1
12
100
AcDbAttribute
  2
DIEPAD
 70
     0
  0
ATTRIB
  5
BB
330
B8
100
AcDbEntity
  8
DIE_TEXT
100
AcDbText
 10
600.0
 20
-860.0
 30
0.0
 40
30.0
  1

100
AcDbAttribute
  2
FINGER
 70
     1
  0
ATTRIB
  5
BC
330
B8
100
AcDbEntity
  8
DIE_TEXT
100
AcDbText
 10
600.0
 20
-860.0
 30
0.0
 40
30.0
  1

100
AcDbAttribute
  2
BALL
 70
     1
  0
ATTRIB
  5
BD
330
B8
100
AcDbEntity
  8
DIE_TEXT
100
AcDbText
 10
555.0
 20
-905.0
 30
0.0
 40
30.0
  1
IO12
100
AcDbAttribute
  2
NET
 70
     0
  0
ATTRIB
  5
BE
330
B8
100
AcDbEntity
  8
DIE_TEXT
100
AcDbText
 10
600.0
 20
-860.0
 30
0.0
 40
30.0
  1
B1
100
AcDbAttribute
  2
TIER
 70
     1
  0
ATTRIB
  5
BF
330
B8
100
AcDbEntity
  8
DIE_TEXT
100
AcDbText
 10
600.0
 20
-860.0
 30
0.0
 40
30.0
  1

100
AcDbAttribute
  2
BOND
 70
     1
  0
SEQEND
  5
B9
330
B8
100
AcDbEntity
  8
DIE_PAD
  0
INSERT
  5
C0
330
1F
100
AcDbEntity
  8
DIE_PAD
100
AcDbBlockReference
 66
     1
  2
DP_120
 10
860.0
 20
-600.0
 30
0.0
  0
ATTRIB
  5
C2
330
C0
100
AcDbEntity
  8
DIE_TEXT
100
AcDbText
 10
815.0
 20
-585.0
 30
0.0
 40
30.0
  1
13
100
AcDbAttribute
  2
DIEPAD
 70
     0
  0
ATTRIB
  5
C3
330
C0
100
AcDbEntity
  8
DIE_TEXT
100
AcDbText
 10
860.0
 20
-600.0
 30
0.0
 40
30.0
  1

100
AcDbAttribute
  2
FINGER
 70
     1
  0
ATTRIB
  5
C4
330
C0
100
AcDbEntity
  8
DIE_TEXT
100
AcDbText
 10
860.0
 20
-600.0
 30
0.0
 40
30.0
  1

100
AcDbAttribute
  2
BALL
 70
     1
  0
ATTRIB
  5
C5
330
C0
100
AcDbEntity
  8
DIE_TEXT
100
AcDbText
 10
815.0
 20
-645.0
 30
0.0
 40
30.0
  1
IO13
100
AcDbAttribute
  2
NET
 70
     0
  0
ATTRIB
  5
C6
330
C0
100
AcDbEntity
  8
DIE_TEXT
100
AcDbText
 10
860.0
 20
-600.0
 30
0.0
 40
30.0
  1
R1
100
AcDbAttribute
  2
TIER
 70
     1
  0
ATTRIB
  5
C7
330
C0
100
AcDbEntity
  8
DIE_TEXT
100
AcDbText
 10
860.0
 20
-600.0
 30
0.0
 40
30.0
  1

100
AcDbAttribute
  2
BOND
 70
     1
  0
SEQEND
  5
C1
330
C0
100
AcDbEntity
  8
DIE_PAD
  0
INSERT
  5
C8
330
1F
100
AcDbEntity
  8
DIE_PAD
100
AcDbBlockReference
 66
     1
  2
DP_120
 10
860.0
 20
-360.0
 30
0.0
  0
ATTRIB
  5
CA
330
C8
100
AcDbEntity
  8
DIE_TEXT
100
AcDbText
 10
815.0
 20
-345.0
 30
0.0
 40
30.0
  1
14
100
AcDbAttribute
  2
DIEPAD
 70
     0
  0
ATTRIB
  5
CB
330
C8
100
AcDbEntity
  8
DIE_TEXT
100
AcDbText
 10
860.0
 20
-360.0
 30
0.0
 40
30.0
  1

100
AcDbAttribute
  2
FINGER
 70
     1
  0
ATTRIB
  5
CC
330
C8
100
AcDbEntity
  8
DIE_TEXT
100
AcDbText
 10
860.0
 20
-360.0
 30
0.0
 40
30.0
  1

100
AcDbAttribute
  2
BALL
 70
     1
  0
ATTRIB
  5
CD
330
C8
100
AcDbEntity
  8
DIE_TEXT
100
AcDbText
 10
815.0
 20
-405.0
 30
0.0
 40
30.0
  1
VCCINT
100
AcDbAttribute
  2
NET
 70
     0
  0
ATTRIB
  5
CE
330
C8
100
AcDbEntity
  8
DIE_TEXT
100
AcDbText
 10
860.0
 20
-360.0
 30
0.0
 40
30.0
  1
R1
100
AcDbAttribute
  2
TIER
 70
     1
  0
ATTRIB
  5
CF
330
C8
100
AcDbEntity
  8
DIE_TEXT
100
AcDbText
 10
860.0
 20
-360.0
 30
0.0
 40
30.0
  1

100
AcDbAttribute
  2
BOND
 70
     1
  0
SEQEND
  5
C9
330
C8
100
AcDbEntity
  8
DIE_PAD
  0
INSERT
  5
D0
330
1F
100
AcDbEntity
  8
DIE_PAD
100
AcDbBlockReference
 66
     1
  2
DP_120
 10
860.0
 20
-120.0
 30
0.0
  0
ATTRIB
  5
D2
330
D0
100
AcDbEntity
  8
DIE_TEXT
100
AcDbText
 10
815.0
 20
-105.0
 30
0.0
 40
30.0
  1
15
100
AcDbAttribute
  2
DIEPAD
 70
     0
  0
ATTRIB
  5
D3
330
D0
100
AcDbEntity
  8
DIE_TEXT
100
AcDbText
 10
860.0
 20
-120.0
 30
0.0
 40
30.0
  1

100
AcDbAttribute
  2
FINGER
 70
     1
  0
ATTRIB
  5
D4
330
D0
100
AcDbEntity
  8
DIE_TEXT
100
AcDbText
 10
860.0
 20
-120.0
 30
0.0
 40
30.0
  1

100
AcDbAttribute
  2
BALL
 70
     1
  0
ATTRIB
  5
D5
330
D0
100
AcDbEntity
  8
DIE_TEXT
100
AcDbText
 10
815.0
 20
-165.0
 30
0.0
 40
30.0
  1
VSS
100
AcDbAttribute
  2
NET
 70
     0
  0
ATTRIB
  5
D6
330
D0
100
AcDbEntity
  8
DIE_TEXT
100
AcDbText
 10
860.0
 20
-120.0
 30
0.0
 40
30.0
  1
R1
100
AcDbAttribute
  2
TIER
 70
     1
  0
ATTRIB
  5
D7
330
D0
100
AcDbEntity
  8
DIE_TEXT
100
AcDbText
 10
860.0
 20
-120.0
 30
0.0
 40
30.0
  1

100
AcDbAttribute
  2
BOND
 70
     1
  0
SEQEND
  5
D1
330
D0
100
AcDbEntity
  8
DIE_PAD
  0
INSERT
  5
D8
330
1F
100
AcDbEntity
  8
DIE_PAD
100
AcDbBlockReference
 66
     1
  2
DP_120
 10
860.0
 20
120.0
 30
0.0
  0
ATTRIB
  5
DA
330
D8
100
AcDbEntity
  8
DIE_TEXT
100
AcDbText
 10
815.0
 20
135.0
 30
0.0
 40
30.0
  1
16
100
AcDbAttribute
  2
DIEPAD
 70
     0
  0
ATTRIB
  5
DB
330
D8
100
AcDbEntity
  8
DIE_TEXT
100
AcDbText
 10
860.0
 20
120.0
 30
0.0
 40
30.0
  1

100
AcDbAttribute
  2
FINGER
 70
     1
  0
ATTRIB
  5
DC
330
D8
100
AcDbEntity
  8
DIE_TEXT
100
AcDbText
 10
860.0
 20
120.0
 30
0.0
 40
30.0
  1

100
AcDbAttribute
  2
BALL
 70
     1
  0
ATTRIB
  5
DD
330
D8
100
AcDbEntity
  8
DIE_TEXT
100
AcDbText
 10
815.0
 20
75.0
 30
0.0
 40
30.0
  1
VCC
100
AcDbAttribute
  2
NET
 70
     0
  0
ATTRIB
  5
DE
330
D8
100
AcDbEntity
  8
DIE_TEXT
100
AcDbText
 10
860.0
 20
120.0
 30
0.0
 40
30.0
  1
R1
100
AcDbAttribute
  2
TIER
 70
     1
  0
ATTRIB
  5
DF
330
D8
100
AcDbEntity
  8
DIE_TEXT
100
AcDbText
 10
860.0
 20
120.0
 30
0.0
 40
30.0
  1

100
AcDbAttribute
  2
BOND
 70
     1
  0
SEQEND
  5
D9
330
D8
100
AcDbEntity
  8
DIE_PAD
  0
INSERT
  5
E0
330
1F
100
AcDbEntity
  8
DIE_PAD
100
AcDbBlockReference
 66
     1
  2
DP_120
 10
860.0
 20
360.0
 30
0.0
  0
ATTRIB
  5
E2
330
E0
100
AcDbEntity
  8
DIE_TEXT
100
AcDbText
 10
815.0
 20
375.0
 30
0.0
 40
30.0
  1
17
100
AcDbAttribute
  2
DIEPAD
 70
     0
  0
ATTRIB
  5
E3
330
E0
100
AcDbEntity
  8
DIE_TEXT
100
AcDbText
 10
860.0
 20
360.0
 30
0.0
 40
30.0
  1

100
AcDbAttribute
  2
FINGER
 70
     1
  0
ATTRIB
  5
E4
330
E0
100
AcDbEntity
  8
DIE_TEXT
100
AcDbText
 10
860.0
 20
360.0
 30
0.0
 40
30.0
  1

100
AcDbAttribute
  2
BALL
 70
     1
  0
ATTRIB
  5
E5
330
E0
100
AcDbEntity
  8
DIE_TEXT
100
AcDbText
 10
815.0
 20
315.0
 30
0.0
 40
30.0
  1
IO17
100
AcDbAttribute
  2
NET
 70
     0
  0
ATTRIB
  5
E6
330
E0
100
AcDbEntity
  8
DIE_TEXT
100
AcDbText
 10
860.0
 20
360.0
 30
0.0
 40
30.0
  1
R1
100
AcDbAttribute
  2
TIER
 70
     1
  0
ATTRIB
  5
E7
330
E0
100
AcDbEntity
  8
DIE_TEXT
100
AcDbText
 10
860.0
 20
360.0
 30
0.0
 40
30.0
  1

100
AcDbAttribute
  2
BOND
 70
     1
  0
SEQEND
  5
E1
330
E0
100
AcDbEntity
  8
DIE_PAD
  0
INSERT
  5
E8
330
1F
100
AcDbEntity
  8
DIE_PAD
100
AcDbBlockReference
 66
     1
  2
DP_120
 10
860.0
 20
600.0
 30
0.0
  0
ATTRIB
  5
EA
330
E8
100
AcDbEntity
  8
DIE_TEXT
100
AcDbText
 10
815.0
 20
615.0
 30
0.0
 40
30.0
  1
18
100
AcDbAttribute
  2
DIEPAD
 70
     0
  0
ATTRIB
  5
EB
330
E8
100
AcDbEntity
  8
DIE_TEXT
100
AcDbText
 10
860.0
 20
600.0
 30
0.0
 40
30.0
  1

100
AcDbAttribute
  2
FINGER
 70
     1
  0
ATTRIB
  5
EC
330
E8
100
AcDbEntity
  8
DIE_TEXT
100
AcDbText
 10
860.0
 20
600.0
 30
0.0
 40
30.0
  1

100
AcDbAttribute
  2
BALL
 70
     1
  0
ATTRIB
  5
ED
330
E8
100
AcDbEntity
  8
DIE_TEXT
100
AcDbText
 10
815.0
 20
555.0
 30
0.0
 40
30.0
  1
IO18
100
AcDbAttribute
  2
NET
 70
     0
  0
ATTRIB
  5
EE
330
E8
100
AcDbEntity
  8
DIE_TEXT
100
AcDbText
 10
860.0
 20
600.0
 30
0.0
 40
30.0
  1
R1
100
AcDbAttribute
  2
TIER
 70
     1
  0
ATTRIB
  5
EF
330
E8
100
AcDbEntity
  8
DIE_TEXT
100
AcDbText
 10
860.0
 20
600.0
 30
0.0
 40
30.0
  1

100
AcDbAttribute
  2
BOND
 70
     1
  0
SEQEND
  5
E9
330
E8
100
AcDbEntity
  8
DIE_PAD
  0
INSERT
  5
F0
330
1F
100
AcDbEntity
  8
DIE_PAD
100
AcDbBlockReference
 66
     1
  2
DP_120
 10
600.0
 20
860.0
 30
0.0
  0
ATTRIB
  5
F2
330
F0
100
AcDbEntity
  8
DIE_TEXT
100
AcDbText
 10
555.0
 20
875.0
 30
0.0
 40
30.0
  1
19
100
AcDbAttribute
  2
DIEPAD
 70
     0
  0
ATTRIB
  5
F3
330
F0
100
AcDbEntity
  8
DIE_TEXT
100
AcDbText
 10
600.0
 20
860.0
 30
0.0
 40
30.0
  1

100
AcDbAttribute
  2
FINGER
 70
     1
  0
ATTRIB
  5
F4
330
F0
100
AcDbEntity
  8
DIE_TEXT
100
AcDbText
 10
600.0
 20
860.0
 30
0.0
 40
30.0
  1

100
AcDbAttribute
  2
BALL
 70
     1
  0
ATTRIB
  5
F5
330
F0
100
AcDbEntity
  8
DIE_TEXT
100
AcDbText
 10
555.0
 20
815.0
 30
0.0
 40
30.0
  1
IO19
100
AcDbAttribute
  2
NET
 70
     0
  0
ATTRIB
  5
F6
330
F0
100
AcDbEntity
  8
DIE_TEXT
100
AcDbText
 10
600.0
 20
860.0
 30
0.0
 40
30.0
  1
T1
100
AcDbAttribute
  2
TIER
 70
     1
  0
ATTRIB
  5
F7
330
F0
100
AcDbEntity
  8
DIE_TEXT
100
AcDbText
 10
600.0
 20
860.0
 30
0.0
 40
30.0
  1

100
AcDbAttribute
  2
BOND
 70
     1
  0
SEQEND
  5
F1
330
F0
100
AcDbEntity
  8
DIE_PAD
  0
INSERT
  5
F8
330
1F
100
AcDbEntity
  8
DIE_PAD
100
AcDbBlockReference
 66
     1
  2
DP_120
 10
360.0
 20
860.0
 30
0.0
  0
ATTRIB
  5
FA
330
F8
100
AcDbEntity
  8
DIE_TEXT
100
AcDbText
 10
315.0
 20
875.0
 30
0.0
 40
30.0
  1
20
100
AcDbAttribute
  2
DIEPAD
 70
     0
  0
ATTRIB
  5
FB
330
F8
100
AcDbEntity
  8
DIE_TEXT
100
AcDbText
 10
360.0
 20
860.0
 30
0.0
 40
30.0
  1

100
AcDbAttribute
  2
FINGER
 70
     1
  0
ATTRIB
  5
FC
330
F8
100
AcDbEntity
  8
DIE_TEXT
100
AcDbText
 10
360.0
 20
860.0
 30
0.0
 40
30.0
  1

100
AcDbAttribute
  2
BALL
 70
     1
  0
ATTRIB
  5
FD
330
F8
100
AcDbEntity
  8
DIE_TEXT
100
AcDbText
 10
315.0
 20
815.0
 30
0.0
 40
30.0
  1
VCCINT
100
AcDbAttribute
  2
NET
 70
     0
  0
ATTRIB
  5
FE
330
F8
100
AcDbEntity
  8
DIE_TEXT
100
AcDbText
 10
360.0
 20
860.0
 30
0.0
 40
30.0
  1
T1
100
AcDbAttribute
  2
TIER
 70
     1
  0
ATTRIB
  5
FF
330
F8
100
AcDbEntity
  8
DIE_TEXT
100
AcDbText
 10
360.0
 20
860.0
 30
0.0
 40
30.0
  1

100
AcDbAttribute
  2
BOND
 70
     1
  0
SEQEND
  5
F9
330
F8
100
AcDbEntity
  8
DIE_PAD
  0
INSERT
  5
100
330
1F
100
AcDbEntity
  8
DIE_PAD
100
AcDbBlockReference
 66
     1
  2
DP_120
 10
120.0
 20
860.0
 30
0.0
  0
ATTRIB
  5
102
330
100
100
AcDbEntity
  8
DIE_TEXT
100
AcDbText
 10
75.0
 20
875.0
 30
0.0
 40
30.0
  1
21
100
AcDbAttribute
  2
DIEPAD
 70
     0
  0
ATTRIB
  5
103
330
100
100
AcDbEntity
  8
DIE_TEXT
100
AcDbText
 10
120.0
 20
860.0
 30
0.0
 40
30.0
  1

100
AcDbAttribute
  2
FINGER
 70
     1
  0
ATTRIB
  5
104
330
100
100
AcDbEntity
  8
DIE_TEXT
100
AcDbText
 10
120.0
 20
860.0
 30
0.0
 40
30.0
  1

100
AcDbAttribute
  2
BALL
 70
     1
  0
ATTRIB
  5
105
330
100
100
AcDbEntity
  8
DIE_TEXT
100
AcDbText
 10
75.0
 20
815.0
 30
0.0
 40
30.0
  1
VSS
100
AcDbAttribute
  2
NET
 70
     0
  0
ATTRIB
  5
106
330
100
100
AcDbEntity
  8
DIE_TEXT
100
AcDbText
 10
120.0
 20
860.0
 30
0.0
 40
30.0
  1
T1
100
AcDbAttribute
  2
TIER
 70
     1
  0
ATTRIB
  5
107
330
100
100
AcDbEntity
  8
DIE_TEXT
100
AcDbText
 10
120.0
 20
860.0
 30
0.0
 40
30.0
  1

100
AcDbAttribute
  2
BOND
 70
     1
  0
SEQEND
  5
101
330
100
100
AcDbEntity
  8
DIE_PAD
  0
INSERT
  5
108
330
1F
100
AcDbEntity
  8
DIE_PAD
100
AcDbBlockReference
 66
     1
  2
DP_120
 10
-120.0
 20
860.0
 30
0.0
  0
ATTRIB
  5
10A
330
108
100
AcDbEntity
  8
DIE_TEXT
100
AcDbText
 10
-165.0
 20
875.0
 30
0.0
 40
30.0
  1
22
100
AcDbAttribute
  2
DIEPAD
 70
     0
  0
ATTRIB
  5
10B
330
108
100
AcDbEntity
  8
DIE_TEXT
100
AcDbText
 10
-120.0
 20
860.0
 30
0.0
 40
30.0
  1

100
AcDbAttribute
  2
FINGER
 70
     1
  0
ATTRIB
  5
10C
330
108
100
AcDbEntity
  8
DIE_TEXT
100
AcDbText
 10
-120.0
 20
860.0
 30
0.0
 40
30.0
  1

100
AcDbAttribute
  2
BALL
 70
     1
  0
ATTRIB
  5
10D
330
108
100
AcDbEntity
  8
DIE_TEXT
100
AcDbText
 10
-165.0
 20
815.0
 30
0.0
 40
30.0
  1
VCC
100
AcDbAttribute
  2
NET
 70
     0
  0
ATTRIB
  5
10E
330
108
100
AcDbEntity
  8
DIE_TEXT
100
AcDbText
 10
-120.0
 20
860.0
 30
0.0
 40
30.0
  1
T1
100
AcDbAttribute
  2
TIER
 70
     1
  0
ATTRIB
  5
10F
330
108
100
AcDbEntity
  8
DIE_TEXT
100
AcDbText
 10
-120.0
 20
860.0
 30
0.0
 40
30.0
  1

100
AcDbAttribute
  2
BOND
 70
     1
  0
SEQEND
  5
109
330
108
100
AcDbEntity
  8
DIE_PAD
  0
INSERT
  5
110
330
1F
100
AcDbEntity
  8
DIE_PAD
100
AcDbBlockReference
 66
     1
  2
DP_120
 10
-360.0
 20
860.0
 30
0.0
  0
ATTRIB
  5
112
330
110
100
AcDbEntity
  8
DIE_TEXT
100
AcDbText
 10
-405.0
 20
875.0
 30
0.0
 40
30.0
  1
23
100
AcDbAttribute
  2
DIEPAD
 70
     0
  0
ATTRIB
  5
113
330
110
100
AcDbEntity
  8
DIE_TEXT
100
AcDbText
 10
-360.0
 20
860.0
 30
0.0
 40
30.0
  1

100
AcDbAttribute
  2
FINGER
 70
     1
  0
ATTRIB
  5
114
330
110
100
AcDbEntity
  8
DIE_TEXT
100
AcDbText
 10
-360.0
 20
860.0
 30
0.0
 40
30.0
  1

100
AcDbAttribute
  2
BALL
 70
     1
  0
ATTRIB
  5
115
330
110
100
AcDbEntity
  8
DIE_TEXT
100
AcDbText
 10
-405.0
 20
815.0
 30
0.0
 40
30.0
  1
IO23
100
AcDbAttribute
  2
NET
 70
     0
  0
ATTRIB
  5
116
330
110
100
AcDbEntity
  8
DIE_TEXT
100
AcDbText
 10
-360.0
 20
860.0
 30
0.0
 40
30.0
  1
T1
100
AcDbAttribute
  2
TIER
 70
     1
  0
ATTRIB
  5
117
330
110
100
AcDbEntity
  8
DIE_TEXT
100
AcDbText
 10
-360.0
 20
860.0
 30
0.0
 40
30.0
  1

100
AcDbAttribute
  2
BOND
 70
     1
  0
SEQEND
  5
111
330
110
100
AcDbEntity
  8
DIE_PAD
  0
INSERT
  5
118
330
1F
100
AcDbEntity
  8
DIE_PAD
100
AcDbBlockReference
 66
     1
  2
DP_120
 10
-600.0
 20
860.0
 30
0.0
  0
ATTRIB
  5
11A
330
118
100
AcDbEntity
  8
DIE_TEXT
100
AcDbText
 10
-645.0
 20
875.0
 30
0.0
 40
30.0
  1
24
100
AcDbAttribute
  2
DIEPAD
 70
     0
  0
ATTRIB
  5
11B
330
118
100
AcDbEntity
  8
DIE_TEXT
100
AcDbText
 10
-600.0
 20
860.0
 30
0.0
 40
30.0
  1

100
AcDbAttribute
  2
FINGER
 70
     1
  0
ATTRIB
  5
11C
330
118
100
AcDbEntity
  8
DIE_TEXT
100
AcDbText
 10
-600.0
 20
860.0
 30
0.0
 40
30.0
  1

100
AcDbAttribute
  2
BALL
 70
     1
  0
ATTRIB
  5
11D
330
118
100
AcDbEntity
  8
DIE_TEXT
100
AcDbText
 10
-645.0
 20
815.0
 30
0.0
 40
30.0
  1
IO24
100
AcDbAttribute
  2
NET
 70
     0
  0
ATTRIB
  5
11E
330
118
100
AcDbEntity
  8
DIE_TEXT
100
AcDbText
 10
-600.0
 20
860.0
 30
0.0
 40
30.0
  1
T1
100
AcDbAttribute
  2
TIER
 70
     1
  0
ATTRIB
  5
11F
330
118
100
AcDbEntity
  8
DIE_TEXT
100
AcDbText
 10
-600.0
 20
860.0
 30
0.0
 40
30.0
  1

100
AcDbAttribute
  2
BOND
 70
     1
  0
SEQEND
  5
119
330
118
100
AcDbEntity
  8
DIE_PAD
  0
TEXT
  5
120
330
1F
100
AcDbEntity
  8
DIE_TEXT
100
AcDbText
 10
-244.4
 20
12.53333333333333
 30
0.0
 40
37.6
  1
testdie_24pads
 72
     1
 11
0.0
 21
0.0
 31
0.0
100
AcDbText
 73
     1
  0
TEXT
  5
121
330
1F
100
AcDbEntity
  8
DIE_TEXT
100
AcDbText
 10
-238.1333333333333
 20
-43.86666666666666
 30
0.0
 40
37.6
  1
1880 x 1880 um
 72
     1
 11
0.0
 21
-56.4
 31
0.0
100
AcDbText
 73
     1
  0
LINE
  5
122
330
1F
100
AcDbEntity
  8
DIE_GEOMETRY
100
AcDbLine
 10
-860.0
 20
600.0
 30
0.0
 11
-766.0
 21
600.0
 31
0.0
  0
TEXT
  5
123
330
1F
100
AcDbEntity
  8
DIE_TEXT
100
AcDbText
 10
-778.5333333333332
 20
581.2
 30
0.0
 40
37.6
  1
*
 72
     1
 11
-766.0
 21
600.0
 31
0.0
100
AcDbText
 73
     2
  0
INSERT
  5
131
330
1F
100
AcDbEntity
  8
ACS_LOCKED
100
AcDbBlockReference
 66
     1
  2
ACS_EXTRACT
 10
0.0
 20
0.0
 30
0.0
  0
ATTRIB
  5
133
330
131
100
AcDbEntity
  8
ACS_LOCKED
100
AcDbText
 10
0.0
 20
0.0
 30
0.0
 40
0.001
  1
example_24
100
AcDbAttribute
  2
Die Name
 70
     1
  0
ATTRIB
  5
134
330
131
100
AcDbEntity
  8
ACS_LOCKED
100
AcDbText
 10
0.0
 20
0.0
 30
0.0
 40
0.001
  1
1880
100
AcDbAttribute
  2
Die Width
 70
     1
  0
ATTRIB
  5
135
330
131
100
AcDbEntity
  8
ACS_LOCKED
100
AcDbText
 10
0.0
 20
0.0
 30
0.0
 40
0.001
  1
1880
100
AcDbAttribute
  2
Die Height
 70
     1
  0
ATTRIB
  5
136
330
131
100
AcDbEntity
  8
ACS_LOCKED
100
AcDbText
 10
0.0
 20
0.0
 30
0.0
 40
0.001
  1
120
100
AcDbAttribute
  2
Minimum Die Pad Opening
 70
     1
  0
ATTRIB
  5
137
330
131
100
AcDbEntity
  8
ACS_LOCKED
100
AcDbText
 10
0.0
 20
0.0
 30
0.0
 40
0.001
  1
120
100
AcDbAttribute
  2
Minimum Die Pad Pitch
 70
     1
  0
ATTRIB
  5
138
330
131
100
AcDbEntity
  8
ACS_LOCKED
100
AcDbText
 10
0.0
 20
0.0
 30
0.0
 40
0.001
  1
24
100
AcDbAttribute
  2
Number of Die Pads
 70
     1
  0
ATTRIB
  5
139
330
131
100
AcDbEntity
  8
ACS_LOCKED
100
AcDbText
 10
0.0
 20
0.0
 30
0.0
 40
0.001
  1
0
100
AcDbAttribute
  2
BGA Population
 70
     1
  0
ATTRIB
  5
13A
330
131
100
AcDbEntity
  8
ACS_LOCKED
100
AcDbText
 10
0.0
 20
0.0
 30
0.0
 40
0.001
  1
0
100
AcDbAttribute
  2
BGA Depopulation
 70
     1
  0
ATTRIB
  5
13B
330
131
100
AcDbEntity
  8
ACS_LOCKED
100
AcDbText
 10
0.0
 20
0.0
 30
0.0
 40
0.001
  1
0
100
AcDbAttribute
  2
BGA Repopulation
 70
     1
  0
ATTRIB
  5
13C
330
131
100
AcDbEntity
  8
ACS_LOCKED
100
AcDbText
 10
0.0
 20
0.0
 30
0.0
 40
0.001
  1

100
AcDbAttribute
  2
BGA Missing Balls
 70
     1
  0
SEQEND
  5
132
330
131
100
AcDbEntity
  8
ACS_LOCKED
  0
LINE
  5
13D
330
1F
100
AcDbEntity
  8
ACS_LOCKED
100
AcDbLine
 10
0.0
 20
0.0
 30
0.0
 11
248.9284318120899
 21
-511.3913315949084
 31
0.0
  0
LINE
  5
13E
330
1F
100
AcDbEntity
  8
ACS_LOCKED
100
AcDbLine
 10
0.0
 20
0.0
 30
0.0
 11
0.0000030681030694
 21
-527.1872063830242
 31
0.0
  0
ENDSEC
  0
SECTION
  2
OBJECTS
  0
DICTIONARY
  5
C
330
0
100
AcDbDictionary
  3
ACAD_GROUP
350
D
  3
ACAD_LAYOUT
350
1A
  3
ACAD_MLINESTYLE
350
17
  3
ACAD_PLOTSETTINGS
350
19
  3
ACAD_PLOTSTYLENAME
350
E
  3
ACDBVARIABLEDICTIONARY
350
2B
  3
ACDBHEADERROUNDTRIPXREC
350
177
  0
DICTIONARY
  5
199
330
1F
100
AcDbDictionary
280
     1
  3
ACAD_LAYOUTSELFREF
360
19A
  0
DICTIONARY
  5
197
330
1B
100
AcDbDictionary
280
     1
  3
ACAD_LAYOUTSELFREF
360
198
  0
DICTIONARY
  5
D
102
{ACAD_REACTORS
330
C
102
}
330
C
100
AcDbDictionary
  0
DICTIONARY
  5
1A
102
{ACAD_REACTORS
330
C
102
}
330
C
100
AcDbDictionary
  0
DICTIONARY
  5
17
102
{ACAD_REACTORS
330
C
102
}
330
C
100
AcDbDictionary
  3
Standard
350
18
  0
DICTIONARY
  5
19
102
{ACAD_REACTORS
330
C
102
}
330
C
100
AcDbDictionary
  0
ACDBDICTIONARYWDFLT
  5
E
102
{ACAD_REACTORS
330
C
102
}
330
C
100
AcDbDictionary
281
     1
  3
Normal
350
F
100
AcDbDictionaryWithDefault
340
F
  0
DICTIONARY
  5
2B
102
{ACAD_REACTORS
330
C
102
}
330
C
100
AcDbDictionary
  3
SORTENTS
350
2C
  0
DICTIONARY
  5
177
102
{ACAD_REACTORS
330
C
102
}
330
C
100
AcDbDictionary
  3
TSTACKALIGN
350
178
  3
TSTACKSIZE
350
179
  3
HYPERLINKBASE
350
17A
  3
STYLESHEET
350
17B
  3
LAYOUTDICT
350
17C
  3
PLOTSETDICT
350
17D
  3
PLOTSTYLNAMDICT
350
17E
  3
LWETCUNION
350
17F
  3
INSUNITS
350
180
  3
CEPSNTYPE
350
181
  3
FINGERPRINTGUID
350
182
  3
VERSIONGUID
350
183
  3
PSVPSCALE
350
184
  3
PUCSORTHOREF
350
185
  3
PUCSORTHOVIEW
350
186
  3
PUCSBASE
350
187
  3
PUCSORGTOP
350
188
  3
PUCSORGBOTTOM
350
189
  3
PUCSORGLEFT
350
18A
  3
PUCSORGRIGHT
350
18B
  3
PUCSORGFRONT
350
18C
  3
PUCSORGBACK
350
18D
  3
UCSORTHOREF
350
18E
  3
UCSORTHOVIEW
350
18F
  3
UCSBASE
350
190
  3
UCSORGTOP
350
191
  3
UCSORGBOTTOM
350
192
  3
UCSORGLEFT
350
193
  3
UCSORGRIGHT
350
194
  3
UCSORGFRONT
350
195
  3
UCSORGBACK
350
196
  0
XRECORD
  5
19A
102
{ACAD_REACTORS
330
199
102
}
330
199
100
AcDbXrecord
340
1F
  0
XRECORD
  5
198
102
{ACAD_REACTORS
330
197
102
}
330
197
100
AcDbXrecord
340
1B
  0
MLINESTYLE
  5
18
102
{ACAD_REACTORS
330
17
102
}
330
17
100
AcDbMlineStyle
  2
STANDARD
 70
     0
  3

 62
   256
 51
90.0
 52
90.0
 71
     2
 49
0.5
 62
   256
  6
BYLAYER
 49
-0.5
 62
   256
  6
BYLAYER
  0
ACDBPLACEHOLDER
  5
F
102
{ACAD_REACTORS
330
E
102
}
330
E
100
AcDbPlaceHolder
280
     0
  0
DICTIONARYVAR
  5
2C
102
{ACAD_REACTORS
330
2B
102
}
330
2B
100
DictionaryVariables
280
     0
  1
0
  0
XRECORD
  5
178
102
{ACAD_REACTORS
330
177
102
}
330
177
100
AcDbXrecord
 90
        1
  0
XRECORD
  5
179
102
{ACAD_REACTORS
330
177
102
}
330
177
100
AcDbXrecord
 90
       70
  0
XRECORD
  5
17A
102
{ACAD_REACTORS
330
177
102
}
330
177
100
AcDbXrecord
  1

  0
XRECORD
  5
17B
102
{ACAD_REACTORS
330
177
102
}
330
177
100
AcDbXrecord
  1

  0
XRECORD
  5
17C
102
{ACAD_REACTORS
330
177
102
}
330
177
100
AcDbXrecord
340
1A
  0
XRECORD
  5
17D
102
{ACAD_REACTORS
330
177
102
}
330
177
100
AcDbXrecord
340
19
  0
XRECORD
  5
17E
102
{ACAD_REACTORS
330
177
102
}
330
177
100
AcDbXrecord
340
E
  0
XRECORD
  5
17F
102
{ACAD_REACTORS
330
177
102
}
330
177
100
AcDbXrecord
 90
    10781
  0
XRECORD
  5
180
102
{ACAD_REACTORS
330
177
102
}
330
177
100
AcDbXrecord
 90
        1
  0
XRECORD
  5
181
102
{ACAD_REACTORS
330
177
102
}
330
177
100
AcDbXrecord
 90
        0
  0
XRECORD
  5
182
102
{ACAD_REACTORS
330
177
102
}
330
177
100
AcDbXrecord
  1
{92DE479E-6921-416F-BC02-CD2F0F7E299D}
  0
XRECORD
  5
183
102
{ACAD_REACTORS
330
177
102
}
330
177
100
AcDbXrecord
  1
{891F9A18-2CAD-45F8-A0FC-C50AA89FC47A}
  0
XRECORD
  5
184
102
{ACAD_REACTORS
330
177
102
}
330
177
100
AcDbXrecord
 40
0.0
  0
XRECORD
  5
185
102
{ACAD_REACTORS
330
177
102
}
330
177
100
AcDbXrecord
340
0
  0
XRECORD
  5
186
102
{ACAD_REACTORS
330
177
102
}
330
177
100
AcDbXrecord
 70
     0
  0
XRECORD
  5
187
102
{ACAD_REACTORS
330
177
102
}
330
177
100
AcDbXrecord
340
0
  0
XRECORD
  5
188
102
{ACAD_REACTORS
330
177
102
}
330
177
100
AcDbXrecord
 10
0.0
 20
0.0
 30
0.0
  0
XRECORD
  5
189
102
{ACAD_REACTORS
330
177
102
}
330
177
100
AcDbXrecord
 10
0.0
 20
0.0
 30
0.0
  0
XRECORD
  5
18A
102
{ACAD_REACTORS
330
177
102
}
330
177
100
AcDbXrecord
 10
0.0
 20
0.0
 30
0.0
  0
XRECORD
  5
18B
102
{ACAD_REACTORS
330
177
102
}
330
177
100
AcDbXrecord
 10
0.0
 20
0.0
 30
0.0
  0
XRECORD
  5
18C
102
{ACAD_REACTORS
330
177
102
}
330
177
100
AcDbXrecord
 10
0.0
 20
0.0
 30
0.0
  0
XRECORD
  5
18D
102
{ACAD_REACTORS
330
177
102
}
330
177
100
AcDbXrecord
 10
0.0
 20
0.0
 30
0.0
  0
XRECORD
  5
18E
102
{ACAD_REACTORS
330
177
102
}
330
177
100
AcDbXrecord
340
0
  0
XRECORD
  5
18F
102
{ACAD_REACTORS
330
177
102
}
330
177
100
AcDbXrecord
 70
     0
  0
XRECORD
  5
190
102
{ACAD_REACTORS
330
177
102
}
330
177
100
AcDbXrecord
340
0
  0
XRECORD
  5
191
102
{ACAD_REACTORS
330
177
102
}
330
177
100
AcDbXrecord
 10
0.0
 20
0.0
 30
0.0
  0
XRECORD
  5
192
102
{ACAD_REACTORS
330
177
102
}
330
177
100
AcDbXrecord
 10
0.0
 20
0.0
 30
0.0
  0
XRECORD
  5
193
102
{ACAD_REACTORS
330
177
102
}
330
177
100
AcDbXrecord
 10
0.0
 20
0.0
 30
0.0
  0
XRECORD
  5
194
102
{ACAD_REACTORS
330
177
102
}
330
177
100
AcDbXrecord
 10
0.0
 20
0.0
 30
0.0
  0
XRECORD
  5
195
102
{ACAD_REACTORS
330
177
102
}
330
177
100
AcDbXrecord
 10
0.0
 20
0.0
 30
0.0
  0
XRECORD
  5
196
102
{ACAD_REACTORS
330
177
102
}
330
177
100
AcDbXrecord
 10
0.0
 20
0.0
 30
0.0
  0
ENDSEC
  0
EOF
